  0
SECTION
  2
HEADER
  9
$ACADVER
  1
AC1015
  9
$ACADMAINTVER
 70
     6
  9
$DWGCODEPAGE
  3
ANSI_1254
  9
$INSBASE
 10
0.0
 20
0.0
 30
0.0
  9
$EXTMIN
 10
0.0
 20
0.0
 30
0.0
  9
$EXTMAX
 10
279.4
 20
215.9
 30
0.0
  9
$LIMMIN
 10
0.0
 20
0.0
  9
$LIMMAX
 10
279.4
 20
215.9
  9
$ORTHOMODE
 70
     0
  9
$REGENMODE
 70
     1
  9
$FILLMODE
 70
     1
  9
$QTEXTMODE
 70
     0
  9
$MIRRTEXT
 70
     1
  9
$LTSCALE
 40
1.0
  9
$ATTMODE
 70
     1
  9
$TEXTSIZE
 40
3.5
  9
$TRACEWID
 40
1.0
  9
$TEXTSTYLE
  7
Standard
  9
$CLAYER
  8
0
  9
$CELTYPE
  6
ByLayer
  9
$CECOLOR
 62
   256
  9
$CELTSCALE
 40
1.0
  9
$DISPSILH
 70
     0
  9
$DIMSCALE
 40
1.0
  9
$DIMASZ
 40
3.5
  9
$DIMEXO
 40
1.0
  9
$DIMDLI
 40
3.75
  9
$DIMRND
 40
0.0
  9
$DIMDLE
 40
0.0
  9
$DIMEXE
 40
1.0
  9
$DIMTP
 40
0.0
  9
$DIMTM
 40
0.0
  9
$DIMTXT
 40
3.5
  9
$DIMCEN
 40
2.5
  9
$DIMTSZ
 40
0.0
  9
$DIMTOL
 70
     0
  9
$DIMLIM
 70
     0
  9
$DIMTIH
 70
     1
  9
$DIMTOH
 70
     1
  9
$DIMSE1
 70
     0
  9
$DIMSE2
 70
     0
  9
$DIMTAD
 70
     1
  9
$DIMZIN
 70
     0
  9
$DIMBLK
  1

  9
$DIMASO
 70
     1
  9
$DIMSHO
 70
     1
  9
$DIMPOST
  1

  9
$DIMAPOST
  1

  9
$DIMALT
 70
     0
  9
$DIMALTD
 70
     3
  9
$DIMALTF
 40
0.0393700787
  9
$DIMLFAC
 40
1.0
  9
$DIMTOFL
 70
     1
  9
$DIMTVP
 40
0.0
  9
$DIMTIX
 70
     0
  9
$DIMSOXD
 70
     0
  9
$DIMSAH
 70
     0
  9
$DIMBLK1
  1

  9
$DIMBLK2
  1

  9
$DIMSTYLE
  2
ISO-25
  9
$DIMCLRD
 70
     0
  9
$DIMCLRE
 70
     0
  9
$DIMCLRT
 70
     0
  9
$DIMTFAC
 40
1.0
  9
$DIMGAP
 40
1.524
  9
$DIMJUST
 70
     0
  9
$DIMSD1
 70
     0
  9
$DIMSD2
 70
     0
  9
$DIMTOLJ
 70
     0
  9
$DIMTZIN
 70
     0
  9
$DIMALTZ
 70
     0
  9
$DIMALTTZ
 70
     0
  9
$DIMUPT
 70
     0
  9
$DIMDEC
 70
     2
  9
$DIMTDEC
 70
     2
  9
$DIMALTU
 70
     2
  9
$DIMALTTD
 70
     3
  9
$DIMTXSTY
  7
Standard
  9
$DIMAUNIT
 70
     0
  9
$DIMADEC
 70
     2
  9
$DIMALTRND
 40
0.0
  9
$DIMAZIN
 70
     0
  9
$DIMDSEP
 70
    44
  9
$DIMATFIT
 70
     3
  9
$DIMFRAC
 70
     0
  9
$DIMLDRBLK
  1

  9
$DIMLUNIT
 70
     2
  9
$DIMLWD
 70
    -2
  9
$DIMLWE
 70
    -2
  9
$DIMTMOVE
 70
     0
  9
$LUNITS
 70
     2
  9
$LUPREC
 70
     2
  9
$SKETCHINC
 40
1.0
  9
$FILLETRAD
 40
10.0
  9
$AUNITS
 70
     0
  9
$AUPREC
 70
     2
  9
$MENU
  1
.
  9
$ELEVATION
 40
0.0
  9
$PELEVATION
 40
0.0
  9
$THICKNESS
 40
0.0
  9
$LIMCHECK
 70
     0
  9
$CHAMFERA
 40
0.0
  9
$CHAMFERB
 40
0.0
  9
$CHAMFERC
 40
0.0
  9
$CHAMFERD
 40
0.0
  9
$SKPOLY
 70
     0
  9
$TDCREATE
 40
2458985.699640081
  9
$TDUCREATE
 40
2458985.574640081
  9
$TDUPDATE
 40
2458985.69964037
  9
$TDUUPDATE
 40
2458985.57464037
  9
$TDINDWG
 40
0.0000000116
  9
$TDUSRTIMER
 40
0.0000000116
  9
$USRTIMER
 70
     1
  9
$ANGBASE
 50
0.0
  9
$ANGDIR
 70
     0
  9
$PDMODE
 70
     0
  9
$PDSIZE
 40
-1.0
  9
$PLINEWID
 40
0.0
  9
$SPLFRAME
 70
     0
  9
$SPLINETYPE
 70
     6
  9
$SPLINESEGS
 70
     8
  9
$HANDSEED
  5
F1
  9
$SURFTAB1
 70
     6
  9
$SURFTAB2
 70
     6
  9
$SURFTYPE
 70
     6
  9
$SURFU
 70
     6
  9
$SURFV
 70
     6
  9
$UCSBASE
  2

  9
$UCSNAME
  2

  9
$UCSORG
 10
0.0
 20
0.0
 30
0.0
  9
$UCSXDIR
 10
1.0
 20
0.0
 30
0.0
  9
$UCSYDIR
 10
0.0
 20
1.0
 30
0.0
  9
$UCSORTHOREF
  2

  9
$UCSORTHOVIEW
 70
     0
  9
$UCSORGTOP
 10
0.0
 20
0.0
 30
0.0
  9
$UCSORGBOTTOM
 10
0.0
 20
0.0
 30
0.0
  9
$UCSORGLEFT
 10
0.0
 20
0.0
 30
0.0
  9
$UCSORGRIGHT
 10
0.0
 20
0.0
 30
0.0
  9
$UCSORGFRONT
 10
0.0
 20
0.0
 30
0.0
  9
$UCSORGBACK
 10
0.0
 20
0.0
 30
0.0
  9
$PUCSBASE
  2

  9
$PUCSNAME
  2

  9
$PUCSORG
 10
0.0
 20
0.0
 30
0.0
  9
$PUCSXDIR
 10
1.0
 20
0.0
 30
0.0
  9
$PUCSYDIR
 10
0.0
 20
1.0
 30
0.0
  9
$PUCSORTHOREF
  2

  9
$PUCSORTHOVIEW
 70
     0
  9
$PUCSORGTOP
 10
0.0
 20
0.0
 30
0.0
  9
$PUCSORGBOTTOM
 10
0.0
 20
0.0
 30
0.0
  9
$PUCSORGLEFT
 10
0.0
 20
0.0
 30
0.0
  9
$PUCSORGRIGHT
 10
0.0
 20
0.0
 30
0.0
  9
$PUCSORGFRONT
 10
0.0
 20
0.0
 30
0.0
  9
$PUCSORGBACK
 10
0.0
 20
0.0
 30
0.0
  9
$USERI1
 70
     0
  9
$USERI2
 70
     0
  9
$USERI3
 70
     0
  9
$USERI4
 70
     0
  9
$USERI5
 70
     0
  9
$USERR1
 40
0.0
  9
$USERR2
 40
0.0
  9
$USERR3
 40
0.0
  9
$USERR4
 40
0.0
  9
$USERR5
 40
0.0
  9
$WORLDVIEW
 70
     1
  9
$SHADEDGE
 70
     3
  9
$SHADEDIF
 70
    70
  9
$TILEMODE
 70
     1
  9
$MAXACTVP
 70
    64
  9
$PINSBASE
 10
0.0
 20
0.0
 30
0.0
  9
$PLIMCHECK
 70
     0
  9
$PEXTMIN
 10
1.0000000000E+20
 20
1.0000000000E+20
 30
1.0000000000E+20
  9
$PEXTMAX
 10
-1.0000000000E+20
 20
-1.0000000000E+20
 30
-1.0000000000E+20
  9
$PLIMMIN
 10
0.0
 20
0.0
  9
$PLIMMAX
 10
420.0
 20
297.0
  9
$UNITMODE
 70
     0
  9
$VISRETAIN
 70
     1
  9
$PLINEGEN
 70
     0
  9
$PSLTSCALE
 70
     1
  9
$TREEDEPTH
 70
  3020
  9
$CMLSTYLE
  2
Standard
  9
$CMLJUST
 70
     0
  9
$CMLSCALE
 40
20.0
  9
$PROXYGRAPHICS
 70
     1
  9
$MEASUREMENT
 70
     1
  9
$CELWEIGHT
370
    -1
  9
$ENDCAPS
280
     0
  9
$JOINSTYLE
280
     0
  9
$LWDISPLAY
290
     1
  9
$INSUNITS
 70
     4
  9
$HYPERLINKBASE
  1

  9
$STYLESHEET
  1

  9
$XEDIT
290
     1
  9
$CEPSNTYPE
380
     0
  9
$PSTYLEMODE
290
     1
  9
$FINGERPRINTGUID
  2
{9d0ea7a3-c1e9-48a0-8942-0e245ef7d039}
  9
$VERSIONGUID
  2
{FAEB1C32-E019-11D5-929B-00C0DF256EC4}
  9
$EXTNAMES
290
     1
  9
$PSVPSCALE
 40
0.0
  9
$OLESTARTUP
290
     0
  0
ENDSEC
  0
SECTION
  2
CLASSES
  0
CLASS
  1
ACDBDICTIONARYWDFLT
  2
AcDbDictionaryWithDefault
  3
ObjectDBX Classes
 90
        0
280
     0
281
     0
  0
CLASS
  1
VISUALSTYLE
  2
AcDbVisualStyle
  3
ObjectDBX Classes
 90
     4095
280
     0
281
     0
  0
CLASS
  1
MATERIAL
  2
AcDbMaterial
  3
ObjectDBX Classes
 90
     1153
280
     0
281
     0
  0
CLASS
  1
SCALE
  2
AcDbScale
  3
ObjectDBX Classes
 90
     1153
280
     0
281
     0
  0
CLASS
  1
TABLESTYLE
  2
AcDbTableStyle
  3
ObjectDBX Classes
 90
     4095
280
     0
281
     0
  0
CLASS
  1
MLEADERSTYLE
  2
AcDbMLeaderStyle
  3
ACDB_MLEADERSTYLE_CLASS
 90
     4095
280
     0
281
     0
  0
CLASS
  1
SUN
  2
AcDbSun
  3
SCENEOE
 90
     1153
280
     0
281
     0
  0
CLASS
  1
ACDBPLACEHOLDER
  2
AcDbPlaceHolder
  3
ObjectDBX Classes
 90
        0
280
     0
281
     0
  0
CLASS
  1
LAYOUT
  2
AcDbLayout
  3
ObjectDBX Classes
 90
        0
280
     0
281
     0
  0
ENDSEC
  0
SECTION
  2
TABLES
  0
TABLE
  2
VPORT
  5
8
330
0
100
AcDbSymbolTable
 70
     1
  0
VPORT
  5
29
330
8
100
AcDbSymbolTableRecord
100
AcDbViewportTableRecord
  2
*Active
 70
     0
 10
0.0
 20
0.0
 11
1.0
 21
1.0
 12
139.7
 22
107.95
 13
0.0
 23
0.0
 14
10.0
 24
10.0
 15
10.0
 25
10.0
 16
0.0
 26
0.0
 36
1.0
 17
0.0
 27
0.0
 37
0.0
 40
215.9
 41
1.2941176471
 42
50.0
 43
0.0
 44
0.0
 50
0.0
 51
0.0
 71
     0
 72
  2000
 73
     1
 74
     3
 75
     0
 76
     0
 77
     0
 78
     0
281
     0
 65
     1
110
0.0
120
0.0
130
0.0
111
1.0
121
0.0
131
0.0
112
0.0
122
1.0
132
0.0
 79
     0
146
0.0
  0
ENDTAB
  0
TABLE
  2
LTYPE
  5
5
330
0
100
AcDbSymbolTable
 70
     6
  0
LTYPE
  5
14
330
5
100
AcDbSymbolTableRecord
100
AcDbLinetypeTableRecord
  2
ByBlock
 70
     0
  3

 72
    65
 73
     0
 40
0.0
  0
LTYPE
  5
15
330
5
100
AcDbSymbolTableRecord
100
AcDbLinetypeTableRecord
  2
ByLayer
 70
     0
  3

 72
    65
 73
     0
 40
0.0
  0
LTYPE
  5
16
330
5
100
AcDbSymbolTableRecord
100
AcDbLinetypeTableRecord
  2
Continuous
 70
     0
  3
Solid line
 72
    65
 73
     0
 40
0.0
  0
LTYPE
  5
6E
330
5
100
AcDbSymbolTableRecord
100
AcDbLinetypeTableRecord
  2
HIDDEN
 70
     0
  3
Hidden __ __ __ __ __ __ __ __ __ __ __ __ __ __
 72
    65
 73
     2
 40
1.905
 49
1.27
 74
     0
 49
-0.635
 74
     0
  0
LTYPE
  5
6F
330
5
100
AcDbSymbolTableRecord
100
AcDbLinetypeTableRecord
  2
PHANTOM
 70
     0
  3
Phantom ______  __  __  ______  __  __  ______
 72
    65
 73
     6
 40
12.7
 49
6.35
 74
     0
 49
-1.27
 74
     0
 49
1.27
 74
     0
 49
-1.27
 74
     0
 49
1.27
 74
     0
 49
-1.27
 74
     0
  0
LTYPE
  5
70
330
5
100
AcDbSymbolTableRecord
100
AcDbLinetypeTableRecord
  2
CENTER
 70
     0
  3
Center ____ _ ____ _ ____ _ ____ _ ____ _ ____
 72
    65
 73
     4
 40
10.16
 49
6.35
 74
     0
 49
-1.27
 74
     0
 49
1.27
 74
     0
 49
-1.27
 74
     0
  0
LTYPE
  5
71
330
5
100
AcDbSymbolTableRecord
100
AcDbLinetypeTableRecord
  2
CENTERX2
 70
     0
  3
Center (2x) ________  __  ________  __  _____
 72
    65
 73
     4
 40
20.32
 49
12.7
 74
     0
 49
-2.54
 74
     0
 49
2.54
 74
     0
 49
-2.54
 74
     0
  0
LTYPE
  5
72
330
5
100
AcDbSymbolTableRecord
100
AcDbLinetypeTableRecord
  2
DOT2
 70
     0
  3
Dot (.5x) ........................................
 72
    65
 73
     2
 40
0.635
 49
0.0
 74
     0
 49
-0.635
 74
     0
  0
ENDTAB
  0
TABLE
  2
LAYER
  5
2
330
0
100
AcDbSymbolTable
 70
    17
  0
LAYER
  5
10
330
2
100
AcDbSymbolTableRecord
100
AcDbLayerTableRecord
  2
0
 70
     0
 62
     7
  6
Continuous
370
    -3
390
F
  0
LAYER
  5
73
330
2
100
AcDbSymbolTableRecord
100
AcDbLayerTableRecord
  2
FORMAT
 70
     0
 62
     7
  6
Continuous
370
    -3
390
F
  0
LAYER
  5
74
330
2
100
AcDbSymbolTableRecord
100
AcDbLayerTableRecord
  2
YARDIMCI_GEOMETRI
 70
     0
 62
    -6
  6
Continuous
290
     0
370
    -3
390
F
  0
LAYER
  5
75
330
2
100
AcDbSymbolTableRecord
100
AcDbLayerTableRecord
  2
SAYFA_CERCEVESI
 70
     0
 62
     7
  6
Continuous
370
    25
390
F
  0
LAYER
  5
76
330
2
100
AcDbSymbolTableRecord
100
AcDbLayerTableRecord
  2
ANTET
 70
     0
 62
     7
  6
Continuous
370
    -3
390
F
  0
LAYER
  5
77
330
2
100
AcDbSymbolTableRecord
100
AcDbLayerTableRecord
  2
OLCU
 70
     0
 62
   150
  6
Continuous
370
    -3
390
F
  0
LAYER
  5
78
330
2
100
AcDbSymbolTableRecord
100
AcDbLayerTableRecord
  2
METIN
 70
     0
 62
    96
  6
Continuous
370
    -3
390
F
  0
LAYER
  5
79
330
2
100
AcDbSymbolTableRecord
100
AcDbLayerTableRecord
  2
BALON
 70
     0
 62
     5
  6
Continuous
370
    -3
390
F
  0
LAYER
  5
7A
330
2
100
AcDbSymbolTableRecord
100
AcDbLayerTableRecord
  2
VURGU
 70
     0
 62
     7
  6
Continuous
370
    -3
390
F
  0
LAYER
  5
7B
330
2
100
AcDbSymbolTableRecord
100
AcDbLayerTableRecord
  2
SILIK
 70
     0
 62
     7
  6
Continuous
370
    -3
390
F
  0
LAYER
  5
7C
330
2
100
AcDbSymbolTableRecord
100
AcDbLayerTableRecord
  2
MODEL
 70
     0
 62
     7
  6
Continuous
370
    -3
390
F
  0
LAYER
  5
7D
330
2
100
AcDbSymbolTableRecord
100
AcDbLayerTableRecord
  2
DETAYLANDıRMA
 70
     0
 62
   190
  6
Continuous
370
    -3
390
F
  0
LAYER
  5
7E
330
2
100
AcDbSymbolTableRecord
100
AcDbLayerTableRecord
  2
TOLERANS
 70
     0
 62
   230
  6
Continuous
370
    -3
390
F
  0
LAYER
  5
7F
330
2
100
AcDbSymbolTableRecord
100
AcDbLayerTableRecord
  2
MERKEZ_CIZGILERI
 70
     0
 62
    30
  6
Continuous
370
    -3
390
F
  0
LAYER
  5
80
330
2
100
AcDbSymbolTableRecord
100
AcDbLayerTableRecord
  2
KESIT-DETAY_CIZGILERI
 70
     0
 62
     7
  6
Continuous
370
    -3
390
F
  0
LAYER
  5
81
330
2
100
AcDbSymbolTableRecord
100
AcDbLayerTableRecord
  2
\U+041E\U+0421\U+0415\U+0412\U+042B\U+0415
 70
     0
 62
     7
  6
Continuous
370
    -3
390
F
  0
LAYER
  5
82
330
2
100
AcDbSymbolTableRecord
100
AcDbLayerTableRecord
  2
\U+0412\U+041E\U+0414\U+042F\U+041D\U+042B\U+0415_\U+0417\U+041D\U+0410\U+041A\U+0418
 70
     0
 62
    11
  6
Continuous
370
    -3
390
F
  0
ENDTAB
  0
TABLE
  2
STYLE
  5
3
330
0
100
AcDbSymbolTable
 70
     1
  0
STYLE
  5
11
330
3
100
AcDbSymbolTableRecord
100
AcDbTextStyleTableRecord
  2
Standard
 70
     0
 40
0.0
 41
1.0
 50
0.0
 71
     0
 42
3.5
  3
txt
  4

  0
ENDTAB
  0
TABLE
  2
VIEW
  5
6
330
0
100
AcDbSymbolTable
 70
     0
  0
ENDTAB
  0
TABLE
  2
UCS
  5
7
330
0
100
AcDbSymbolTable
 70
     0
  0
ENDTAB
  0
TABLE
  2
APPID
  5
9
330
0
100
AcDbSymbolTable
 70
     1
  0
APPID
  5
12
330
9
100
AcDbSymbolTableRecord
100
AcDbRegAppTableRecord
  2
ACAD
 70
     0
  0
ENDTAB
  0
TABLE
  2
DIMSTYLE
  5
A
330
0
100
AcDbSymbolTable
 70
     1
100
AcDbDimStyleTable
  0
DIMSTYLE
105
27
330
A
100
AcDbSymbolTableRecord
100
AcDbDimStyleTableRecord
  2
ISO-25
 70
     0
 41
2.5
 42
0.625
 43
3.75
 44
1.25
 73
     0
 74
     0
 77
     1
 78
     8
140
2.5
141
2.5
143
0.0393700787
147
0.625
171
     3
172
     1
178
     0
271
     2
272
     2
274
     3
278
    44
283
     0
284
     8
340
11
  0
ENDTAB
  0
TABLE
  2
BLOCK_RECORD
  5
1
330
0
100
AcDbSymbolTable
 70
     2
  0
BLOCK_RECORD
  5
1F
330
1
100
AcDbSymbolTableRecord
100
AcDbBlockTableRecord
  2
*Model_Space
340
22
  0
BLOCK_RECORD
  5
1B
330
1
100
AcDbSymbolTableRecord
100
AcDbBlockTableRecord
  2
*Paper_Space
340
1E
  0
BLOCK_RECORD
  5
23
330
1
100
AcDbSymbolTableRecord
100
AcDbBlockTableRecord
  2
*Paper_Space0
340
26
  0
BLOCK_RECORD
  5
88
330
1
100
AcDbSymbolTableRecord
100
AcDbBlockTableRecord
  2
SW_CENTERMARKSYMBOL_0
340
0
102
{BLKREFS
331
93
102
}
  0
ENDTAB
  0
ENDSEC
  0
SECTION
  2
BLOCKS
  0
BLOCK
  5
20
330
1F
100
AcDbEntity
  8
0
100
AcDbBlockBegin
  2
*Model_Space
 70
     0
 10
0.0
 20
0.0
 30
0.0
  3
*Model_Space
  1

  0
ENDBLK
  5
21
330
1F
100
AcDbEntity
  8
0
100
AcDbBlockEnd
  0
BLOCK
  5
1C
330
1B
100
AcDbEntity
 67
     1
  8
0
100
AcDbBlockBegin
  2
*Paper_Space
 70
     0
 10
0.0
 20
0.0
 30
0.0
  3
*Paper_Space
  1

  0
ENDBLK
  5
1D
330
1B
100
AcDbEntity
 67
     1
  8
0
100
AcDbBlockEnd
  0
BLOCK
  5
24
330
23
100
AcDbEntity
  8
0
100
AcDbBlockBegin
  2
*Paper_Space0
 70
     0
 10
0.0
 20
0.0
 30
0.0
  3
*Paper_Space0
  1

  0
ENDBLK
  5
25
330
23
100
AcDbEntity
  8
0
100
AcDbBlockEnd
  0
BLOCK
  5
89
330
88
100
AcDbEntity
  8
0
100
AcDbBlockBegin
  2
SW_CENTERMARKSYMBOL_0
 70
     0
 10
0.0
 20
0.0
 30
0.0
  3
SW_CENTERMARKSYMBOL_0
  1

  0
LINE
  5
8B
330
88
100
AcDbEntity
  8
FORMAT
 62
     0
100
AcDbLine
 10
0.0
 20
0.0
 30
0.0
 11
0.0
 21
2.5
 31
0.0
  0
LINE
  5
8C
330
88
100
AcDbEntity
  8
FORMAT
 62
     0
100
AcDbLine
 10
0.0
 20
0.0
 30
0.0
 11
-2.5
 21
0.0
 31
0.0
  0
LINE
  5
8D
330
88
100
AcDbEntity
  8
FORMAT
 62
     0
100
AcDbLine
 10
0.0
 20
0.0
 30
0.0
 11
0.0
 21
-2.5
 31
0.0
  0
LINE
  5
8E
330
88
100
AcDbEntity
  8
FORMAT
 62
     0
100
AcDbLine
 10
0.0
 20
0.0
 30
0.0
 11
2.5
 21
0.0
 31
0.0
  0
LINE
  5
8F
330
88
100
AcDbEntity
  8
FORMAT
 62
     0
100
AcDbLine
 10
0.0
 20
5.0
 30
0.0
 11
0.0
 21
127.5
 31
0.0
  0
LINE
  5
90
330
88
100
AcDbEntity
  8
FORMAT
 62
     0
100
AcDbLine
 10
-5.0
 20
0.0
 30
0.0
 11
-127.5
 21
0.0
 31
0.0
  0
LINE
  5
91
330
88
100
AcDbEntity
  8
FORMAT
 62
     0
100
AcDbLine
 10
0.0
 20
-5.0
 30
0.0
 11
0.0
 21
-127.5
 31
0.0
  0
LINE
  5
92
330
88
100
AcDbEntity
  8
FORMAT
 62
     0
100
AcDbLine
 10
5.0
 20
0.0
 30
0.0
 11
127.5
 21
0.0
 31
0.0
  0
ENDBLK
  5
8A
330
88
100
AcDbEntity
  8
0
100
AcDbBlockEnd
  0
ENDSEC
  0
SECTION
  2
ENTITIES
  0
CIRCLE
  5
83
330
1F
100
AcDbEntity
  8
0
  6
Continuous
 62
     7
370
    25
100
AcDbCircle
 10
139.395004093
 20
107.5851680021
 30
0.0
 40
125.0
  0
CIRCLE
  5
84
330
1F
100
AcDbEntity
  8
0
  6
Continuous
 62
     7
370
    25
100
AcDbCircle
 10
139.395004093
 20
107.5851680021
 30
0.0
 40
102.3
  0
CIRCLE
  5
85
330
1F
100
AcDbEntity
  8
0
  6
Continuous
 62
     7
370
    25
100
AcDbCircle
 10
139.395004093
 20
107.5851680021
 30
0.0
 40
102.0009531232889
  0
CIRCLE
  5
86
330
1F
100
AcDbEntity
  8
0
  6
Continuous
 62
     7
370
    25
100
AcDbCircle
 10
139.395004093
 20
107.5851680021
 30
0.0
 40
82.09904687671113
  0
CIRCLE
  5
87
330
1F
100
AcDbEntity
  8
0
  6
Continuous
 62
     7
370
    25
100
AcDbCircle
 10
139.395004093
 20
107.5851680021
 30
0.0
 40
81.80000000000004
  0
INSERT
  5
93
330
1F
100
AcDbEntity
  8
FORMAT
 62
     7
100
AcDbBlockReference
  2
SW_CENTERMARKSYMBOL_0
 10
139.395004093
 20
107.5851680021
 30
0.0
  0
ARC
  5
94
330
1F
100
AcDbEntity
  8
0
  6
Continuous
 62
     7
370
    25
100
AcDbCircle
 10
-349.3614624524
 20
230.5851680021
 30
0.0
 40
2.000000000000055
100
AcDbArc
 50
70.0835940062
 51
90.0
  0
ARC
  5
95
330
1F
100
AcDbEntity
  8
0
  6
Continuous
 62
     7
370
    25
100
AcDbCircle
 10
-349.3614624524
 20
-15.4148319979
 30
0.0
 40
2.000000000000035
100
AcDbArc
 50
270.0
 51
289.9164059938
  0
LINE
  5
96
330
1F
100
AcDbEntity
  8
0
  6
Continuous
 62
     7
370
    25
100
AcDbLine
 10
-349.3614620519
 20
232.5851680021
 30
0.0
 11
-478.0103093934
 21
232.5851680021
 31
0.0
  0
LINE
  5
97
330
1F
100
AcDbEntity
  8
0
  6
Continuous
 62
     7
370
    25
100
AcDbLine
 10
-478.0103093934
 20
-17.4148319979
 30
0.0
 11
-349.3614620519
 21
-17.4148319979
 31
0.0
  0
LINE
  5
98
330
1F
100
AcDbEntity
  8
0
  6
Continuous
 62
     7
370
    25
100
AcDbLine
 10
-348.6801641983
 20
-17.2952129264
 30
0.0
 11
-280.3404605937
 21
7.4655474405
 31
0.0
  0
LINE
  5
99
330
1F
100
AcDbEntity
  8
0
  6
Continuous
 62
     7
370
    25
100
AcDbLine
 10
-280.3404605937
 20
207.7047885637
 30
0.0
 11
-348.6801641983
 21
232.4655489306
 31
0.0
  0
ARC
  5
9A
330
1F
100
AcDbEntity
  8
0
  6
Continuous
 62
     7
370
    25
100
AcDbCircle
 10
-279.659162848
 20
209.5851680021
 30
0.0
 40
2.000000000000028
100
AcDbArc
 50
250.0835940062
 51
270.0
  0
ARC
  5
9B
330
1F
100
AcDbEntity
  8
0
  6
Continuous
 62
     7
370
    25
100
AcDbCircle
 10
-279.659162848
 20
5.5851680021
 30
0.0
 40
2.000000000000021
100
AcDbArc
 50
90.0
 51
109.9164059938
  0
LINE
  5
9C
330
1F
100
AcDbEntity
  8
0
  6
Continuous
 62
     7
370
    25
100
AcDbLine
 10
-168.0103070092
 20
207.5851694922
 30
0.0
 11
-279.6591646028
 21
207.5851694922
 31
0.0
  0
LINE
  5
9D
330
1F
100
AcDbEntity
  8
0
  6
Continuous
 62
     7
370
    25
100
AcDbLine
 10
-279.6591646028
 20
7.585166512
 30
0.0
 11
-168.0103070092
 21
7.585166512
 31
0.0
  0
LINE
  5
9E
330
1F
100
AcDbEntity
  8
0
  6
Continuous
 62
     7
370
    25
100
AcDbLine
 10
-478.0103093934
 20
232.5851680021
 30
0.0
 11
-478.0103093934
 21
-17.4148319979
 31
0.0
  0
LINE
  5
9F
330
1F
100
AcDbEntity
  8
0
  6
Continuous
 62
     7
370
    25
100
AcDbLine
 10
-168.0103070092
 20
207.5851694922
 30
0.0
 11
-168.0103070092
 21
7.585166512
 31
0.0
  0
LINE
  5
A0
330
1F
100
AcDbEntity
  8
0
  6
Continuous
 62
     1
370
    25
100
AcDbLine
 10
-348.6801641983
 20
232.4655489306
 30
0.0
 11
-348.6801641983
 21
-17.2952129264
 31
0.0
  0
LINE
  5
A1
330
1F
100
AcDbEntity
  8
0
  6
Continuous
 62
     1
370
    25
100
AcDbLine
 10
-349.3614620519
 20
232.5851680021
 30
0.0
 11
-349.3614620519
 21
-17.4148319979
 31
0.0
  0
LINE
  5
A2
330
1F
100
AcDbEntity
  8
0
  6
Continuous
 62
     1
370
    25
100
AcDbLine
 10
-280.3404605937
 20
207.7047885637
 30
0.0
 11
-280.3404605937
 21
7.4655474405
 31
0.0
  0
LINE
  5
A3
330
1F
100
AcDbEntity
  8
0
  6
Continuous
 62
     1
370
    25
100
AcDbLine
 10
-279.6591646028
 20
207.5851694922
 30
0.0
 11
-279.6591646028
 21
7.585166512
 31
0.0
  0
ARC
  5
A4
330
1F
100
AcDbEntity
  8
0
  6
Continuous
 62
     7
370
    25
100
AcDbCircle
 10
594.3341691066
 20
-15.4148319979
 30
0.0
 40
2.000000000000028
100
AcDbArc
 50
250.0835940062
 51
270.0
  0
ARC
  5
A5
330
1F
100
AcDbEntity
  8
0
  6
Continuous
 62
     7
370
    25
100
AcDbCircle
 10
594.3341691066
 20
230.5851680021
 30
0.0
 40
2.000000000000035
100
AcDbArc
 50
90.0
 51
109.9164059938
  0
LINE
  5
A6
330
1F
100
AcDbEntity
  8
0
  6
Continuous
 62
     7
370
    25
100
AcDbLine
 10
594.334168706
 20
-17.4148319979
 30
0.0
 11
722.9830160476
 21
-17.4148319979
 31
0.0
  0
LINE
  5
A7
330
1F
100
AcDbEntity
  8
0
  6
Continuous
 62
     7
370
    25
100
AcDbLine
 10
722.9830160476
 20
232.5851680021
 30
0.0
 11
594.334168706
 21
232.5851680021
 31
0.0
  0
LINE
  5
A8
330
1F
100
AcDbEntity
  8
0
  6
Continuous
 62
     7
370
    25
100
AcDbLine
 10
593.6528708524
 20
232.4655489306
 30
0.0
 11
525.3131672479
 21
207.7047885637
 31
0.0
  0
LINE
  5
A9
330
1F
100
AcDbEntity
  8
0
  6
Continuous
 62
     7
370
    25
100
AcDbLine
 10
525.3131672479
 20
7.4655474405
 30
0.0
 11
593.6528708524
 21
-17.2952129264
 31
0.0
  0
ARC
  5
AA
330
1F
100
AcDbEntity
  8
0
  6
Continuous
 62
     7
370
    25
100
AcDbCircle
 10
524.6318695022
 20
5.5851680021
 30
0.0
 40
2.000000000000016
100
AcDbArc
 50
70.0835940062
 51
90.0
  0
ARC
  5
AB
330
1F
100
AcDbEntity
  8
0
  6
Continuous
 62
     7
370
    25
100
AcDbCircle
 10
524.6318695022
 20
209.5851680021
 30
0.0
 40
2.000000000000008
100
AcDbArc
 50
270.0
 51
289.9164059938
  0
LINE
  5
AC
330
1F
100
AcDbEntity
  8
0
  6
Continuous
 62
     7
370
    25
100
AcDbLine
 10
412.9830136634
 20
7.585166512
 30
0.0
 11
524.6318712569
 21
7.585166512
 31
0.0
  0
LINE
  5
AD
330
1F
100
AcDbEntity
  8
0
  6
Continuous
 62
     7
370
    25
100
AcDbLine
 10
524.6318712569
 20
207.5851694922
 30
0.0
 11
412.9830136634
 21
207.5851694922
 31
0.0
  0
LINE
  5
AE
330
1F
100
AcDbEntity
  8
0
  6
Continuous
 62
     7
370
    25
100
AcDbLine
 10
722.9830160476
 20
107.5851680021
 30
0.0
 11
722.9830160476
 21
232.5851680021
 31
0.0
  0
LINE
  5
AF
330
1F
100
AcDbEntity
  8
0
  6
Continuous
 62
     7
370
    25
100
AcDbLine
 10
722.9830160476
 20
-17.4148319979
 30
0.0
 11
722.9830160476
 21
107.5851680021
 31
0.0
  0
LINE
  5
B0
330
1F
100
AcDbEntity
  8
0
  6
Continuous
 62
     7
370
    25
100
AcDbLine
 10
412.9830136634
 20
107.5851680021
 30
0.0
 11
412.9830136634
 21
207.5851694922
 31
0.0
  0
LINE
  5
B1
330
1F
100
AcDbEntity
  8
0
  6
Continuous
 62
     7
370
    25
100
AcDbLine
 10
412.9830136634
 20
7.585166512
 30
0.0
 11
412.9830136634
 21
107.5851680021
 31
0.0
  0
LINE
  5
B2
330
1F
100
AcDbEntity
  8
0
  6
Continuous
 62
     1
370
    25
100
AcDbLine
 10
593.6528708524
 20
107.5851680021
 30
0.0
 11
593.6528708524
 21
232.4655489306
 31
0.0
  0
LINE
  5
B3
330
1F
100
AcDbEntity
  8
0
  6
Continuous
 62
     1
370
    25
100
AcDbLine
 10
593.6528708524
 20
-17.2952129264
 30
0.0
 11
593.6528708524
 21
107.5851680021
 31
0.0
  0
LINE
  5
B4
330
1F
100
AcDbEntity
  8
0
  6
Continuous
 62
     1
370
    25
100
AcDbLine
 10
594.334168706
 20
107.5851680021
 30
0.0
 11
594.334168706
 21
232.5851680021
 31
0.0
  0
LINE
  5
B5
330
1F
100
AcDbEntity
  8
0
  6
Continuous
 62
     1
370
    25
100
AcDbLine
 10
594.334168706
 20
-17.4148319979
 30
0.0
 11
594.334168706
 21
107.5851680021
 31
0.0
  0
LINE
  5
B6
330
1F
100
AcDbEntity
  8
0
  6
Continuous
 62
     1
370
    25
100
AcDbLine
 10
525.3131672479
 20
107.5851680021
 30
0.0
 11
525.3131672479
 21
207.7047885637
 31
0.0
  0
LINE
  5
B7
330
1F
100
AcDbEntity
  8
0
  6
Continuous
 62
     1
370
    25
100
AcDbLine
 10
525.3131672479
 20
7.4655474405
 30
0.0
 11
525.3131672479
 21
107.5851680021
 31
0.0
  0
LINE
  5
B8
330
1F
100
AcDbEntity
  8
0
  6
Continuous
 62
     1
370
    25
100
AcDbLine
 10
524.6318712569
 20
107.5851680021
 30
0.0
 11
524.6318712569
 21
207.5851694922
 31
0.0
  0
LINE
  5
B9
330
1F
100
AcDbEntity
  8
0
  6
Continuous
 62
     1
370
    25
100
AcDbLine
 10
524.6318712569
 20
7.585166512
 30
0.0
 11
524.6318712569
 21
107.5851680021
 31
0.0
  0
ARC
  5
BA
330
1F
100
AcDbEntity
  8
0
  6
Continuous
 62
     7
370
    25
100
AcDbCircle
 10
262.395004093
 20
547.6879749001
 30
0.0
 40
2.000000000000062
100
AcDbArc
 50
340.0835940062
 51
0.0
  0
ARC
  5
BB
330
1F
100
AcDbEntity
  8
0
  6
Continuous
 62
     7
370
    25
100
AcDbCircle
 10
16.395004093
 20
547.6879749001
 30
0.0
 40
2.00000000000003
100
AcDbArc
 50
180.0
 51
199.9164059938
  0
LINE
  5
BC
330
1F
100
AcDbEntity
  8
0
  6
Continuous
 62
     7
370
    25
100
AcDbLine
 10
264.395004093
 20
547.6879744995
 30
0.0
 11
264.395004093
 21
676.3368218411
 31
0.0
  0
LINE
  5
BD
330
1F
100
AcDbEntity
  8
0
  6
Continuous
 62
     7
370
    25
100
AcDbLine
 10
14.395004093
 20
676.3368218411
 30
0.0
 11
14.395004093
 21
547.6879744995
 31
0.0
  0
LINE
  5
BE
330
1F
100
AcDbEntity
  8
0
  6
Continuous
 62
     7
370
    25
100
AcDbLine
 10
14.5146231645
 20
547.0066766459
 30
0.0
 11
39.2753835314
 21
478.6669730414
 31
0.0
  0
LINE
  5
BF
330
1F
100
AcDbEntity
  8
0
  6
Continuous
 62
     7
370
    25
100
AcDbLine
 10
239.5146246546
 20
478.6669730414
 30
0.0
 11
264.2753850216
 21
547.0066766459
 31
0.0
  0
ARC
  5
C0
330
1F
100
AcDbEntity
  8
0
  6
Continuous
 62
     7
370
    25
100
AcDbCircle
 10
241.395004093
 20
477.9856752956
 30
0.0
 40
2.000000000000028
100
AcDbArc
 50
160.0835940062
 51
180.0
  0
ARC
  5
C1
330
1F
100
AcDbEntity
  8
0
  6
Continuous
 62
     7
370
    25
100
AcDbCircle
 10
37.395004093
 20
477.9856752956
 30
0.0
 40
2.000000000000014
100
AcDbArc
 50
0.0
 51
19.9164059938
  0
LINE
  5
C2
330
1F
100
AcDbEntity
  8
0
  6
Continuous
 62
     7
370
    25
100
AcDbLine
 10
239.3950055832
 20
366.3368194569
 30
0.0
 11
239.3950055832
 21
477.9856770504
 31
0.0
  0
LINE
  5
C3
330
1F
100
AcDbEntity
  8
0
  6
Continuous
 62
     7
370
    25
100
AcDbLine
 10
39.3950026029
 20
477.9856770504
 30
0.0
 11
39.3950026029
 21
366.3368194569
 31
0.0
  0
LINE
  5
C4
330
1F
100
AcDbEntity
  8
0
  6
Continuous
 62
     7
370
    25
100
AcDbLine
 10
264.395004093
 20
676.3368218411
 30
0.0
 11
14.395004093
 21
676.3368218411
 31
0.0
  0
LINE
  5
C5
330
1F
100
AcDbEntity
  8
0
  6
Continuous
 62
     7
370
    25
100
AcDbLine
 10
239.3950055832
 20
366.3368194569
 30
0.0
 11
39.3950026029
 21
366.3368194569
 31
0.0
  0
LINE
  5
C6
330
1F
100
AcDbEntity
  8
0
  6
Continuous
 62
     1
370
    25
100
AcDbLine
 10
264.2753850216
 20
547.0066766459
 30
0.0
 11
14.5146231645
 21
547.0066766459
 31
0.0
  0
LINE
  5
C7
330
1F
100
AcDbEntity
  8
0
  6
Continuous
 62
     1
370
    25
100
AcDbLine
 10
264.395004093
 20
547.6879744995
 30
0.0
 11
14.395004093
 21
547.6879744995
 31
0.0
  0
LINE
  5
C8
330
1F
100
AcDbEntity
  8
0
  6
Continuous
 62
     1
370
    25
100
AcDbLine
 10
239.5146246546
 20
478.6669730414
 30
0.0
 11
39.2753835314
 21
478.6669730414
 31
0.0
  0
LINE
  5
C9
330
1F
100
AcDbEntity
  8
0
  6
Continuous
 62
     1
370
    25
100
AcDbLine
 10
239.3950055832
 20
477.9856770504
 30
0.0
 11
39.3950026029
 21
477.9856770504
 31
0.0
  0
ARC
  5
CA
330
1F
100
AcDbEntity
  8
0
  6
Continuous
 62
     7
370
    25
100
AcDbCircle
 10
16.395004093
 20
-330.8731300068
 30
0.0
 40
2.00000000000003
100
AcDbArc
 50
160.0835940062
 51
180.0
  0
ARC
  5
CB
330
1F
100
AcDbEntity
  8
0
  6
Continuous
 62
     7
370
    25
100
AcDbCircle
 10
262.395004093
 20
-330.8731300068
 30
0.0
 40
2.000000000000062
100
AcDbArc
 50
360.0
 51
19.9164059938
  0
LINE
  5
CC
330
1F
100
AcDbEntity
  8
0
  6
Continuous
 62
     7
370
    25
100
AcDbLine
 10
14.395004093
 20
-330.8731296062
 30
0.0
 11
14.395004093
 21
-459.5219769477
 31
0.0
  0
LINE
  5
CD
330
1F
100
AcDbEntity
  8
0
  6
Continuous
 62
     7
370
    25
100
AcDbLine
 10
264.395004093
 20
-459.5219769477
 30
0.0
 11
264.395004093
 21
-330.8731296062
 31
0.0
  0
LINE
  5
CE
330
1F
100
AcDbEntity
  8
0
  6
Continuous
 62
     7
370
    25
100
AcDbLine
 10
264.2753850216
 20
-330.1918317526
 30
0.0
 11
239.5146246546
 21
-261.852128148
 31
0.0
  0
LINE
  5
CF
330
1F
100
AcDbEntity
  8
0
  6
Continuous
 62
     7
370
    25
100
AcDbLine
 10
39.2753835314
 20
-261.852128148
 30
0.0
 11
14.5146231645
 21
-330.1918317526
 31
0.0
  0
ARC
  5
D0
330
1F
100
AcDbEntity
  8
0
  6
Continuous
 62
     7
370
    25
100
AcDbCircle
 10
37.395004093
 20
-261.1708304023
 30
0.0
 40
2.000000000000014
100
AcDbArc
 50
340.0835940062
 51
0.0
  0
ARC
  5
D1
330
1F
100
AcDbEntity
  8
0
  6
Continuous
 62
     7
370
    25
100
AcDbCircle
 10
241.395004093
 20
-261.1708304023
 30
0.0
 40
2.000000000000028
100
AcDbArc
 50
180.0
 51
199.9164059938
  0
LINE
  5
D2
330
1F
100
AcDbEntity
  8
0
  6
Continuous
 62
     7
370
    25
100
AcDbLine
 10
39.3950026029
 20
-149.5219745636
 30
0.0
 11
39.3950026029
 21
-261.1708321571
 31
0.0
  0
LINE
  5
D3
330
1F
100
AcDbEntity
  8
0
  6
Continuous
 62
     7
370
    25
100
AcDbLine
 10
239.3950055832
 20
-261.1708321571
 30
0.0
 11
239.3950055832
 21
-149.5219745636
 31
0.0
  0
LINE
  5
D4
330
1F
100
AcDbEntity
  8
0
  6
Continuous
 62
     7
370
    25
100
AcDbLine
 10
14.395004093
 20
-459.5219769477
 30
0.0
 11
264.395004093
 21
-459.5219769477
 31
0.0
  0
LINE
  5
D5
330
1F
100
AcDbEntity
  8
0
  6
Continuous
 62
     7
370
    25
100
AcDbLine
 10
39.3950026029
 20
-149.5219745636
 30
0.0
 11
239.3950055832
 21
-149.5219745636
 31
0.0
  0
LINE
  5
D6
330
1F
100
AcDbEntity
  8
0
  6
Continuous
 62
     1
370
    25
100
AcDbLine
 10
14.5146231645
 20
-330.1918317526
 30
0.0
 11
264.2753850216
 21
-330.1918317526
 31
0.0
  0
LINE
  5
D7
330
1F
100
AcDbEntity
  8
0
  6
Continuous
 62
     1
370
    25
100
AcDbLine
 10
14.395004093
 20
-330.8731296062
 30
0.0
 11
264.395004093
 21
-330.8731296062
 31
0.0
  0
LINE
  5
D8
330
1F
100
AcDbEntity
  8
0
  6
Continuous
 62
     1
370
    25
100
AcDbLine
 10
39.2753835314
 20
-261.852128148
 30
0.0
 11
239.5146246546
 21
-261.852128148
 31
0.0
  0
LINE
  5
D9
330
1F
100
AcDbEntity
  8
0
  6
Continuous
 62
     1
370
    25
100
AcDbLine
 10
39.3950026029
 20
-261.1708321571
 30
0.0
 11
239.3950055832
 21
-261.1708321571
 31
0.0
  0
LINE
  5
DA
330
1F
100
AcDbEntity
  8
0
  6
Continuous
 62
     7
370
    25
100
AcDbLine
 10
625.5264146817
 20
-175.269961346
 30
0.0
 11
534.5579423347
 21
-122.7549800728
 31
0.0
  0
LINE
  5
DB
330
1F
100
AcDbEntity
  8
0
  6
Continuous
 62
     7
370
    25
100
AcDbLine
 10
409.5681018645
 20
-339.2671923211
 30
0.0
 11
500.5365742115
 21
-391.7821735942
 31
0.0
  0
SPLINE
  5
DC
330
1F
100
AcDbEntity
  8
0
  6
Continuous
 62
     7
370
    25
100
AcDbSpline
210
0.0
220
0.0
230
1.0
 70
     8
 71
     3
 72
     9
 73
     5
 74
     0
 42
0.000000001
 43
0.00000001
 40
0.0
 40
0.0
 40
0.0
 40
0.0
 40
0.2676064267186822
 40
1.0
 40
1.0
 40
1.0
 40
1.0
 10
634.4608537772024
 20
-182.1440165941486
 30
0.0
 10
634.2750568142533
 20
-181.947612347934
 30
0.0
 10
633.5807649572624
 20
-181.2136828656606
 30
0.0
 10
632.8161818709223
 20
-180.577643834721
 30
0.0
 10
632.2562061322471
 20
-180.1118129361049
 30
0.0
  0
SPLINE
  5
DD
330
1F
100
AcDbEntity
  8
0
  6
Continuous
 62
     7
370
    25
100
AcDbSpline
210
0.0
220
0.0
230
1.0
 70
     8
 71
     3
 72
     9
 73
     5
 74
     0
 42
0.000000001
 43
0.00000001
 40
0.0
 40
0.0
 40
0.0
 40
0.0
 40
0.8731722288575712
 40
1.0
 40
1.0
 40
1.0
 40
1.0
 10
508.3958406160196
 20
-395.299410868845
 30
0.0
 10
509.2390891592118
 20
-395.597934151755
 30
0.0
 10
510.2048190751705
 20
-395.9398177722413
 30
0.0
 10
511.2204895149325
 20
-396.1689361488413
 30
0.0
 10
511.3493047330227
 20
-396.1979947218732
 30
0.0
  0
LINE
  5
DE
330
1F
100
AcDbEntity
  8
0
  6
Continuous
 62
     7
370
    25
100
AcDbLine
 10
519.1619475035
 20
-397.5828326556
 30
0.0
 11
576.2792051402
 21
-402.919818606
 31
0.0
  0
LINE
  5
DF
330
1F
100
AcDbEntity
  8
0
  6
Continuous
 62
     7
370
    25
100
AcDbLine
 10
673.0488461074
 20
-235.2917214168
 30
0.0
 11
639.8638571683
 21
-188.4983374488
 31
0.0
  0
LINE
  5
E0
330
1F
100
AcDbEntity
  8
0
  6
Continuous
 62
     7
370
    25
100
AcDbLine
 10
741.2620610877
 20
-270.9494577782
 30
0.0
 11
668.5808270867
 21
-228.9914744902
 31
0.0
  0
LINE
  5
E1
330
1F
100
AcDbEntity
  8
0
  6
Continuous
 62
     7
370
    25
100
AcDbLine
 10
568.5889568178
 20
-402.2012479392
 30
0.0
 11
641.2701908189
 21
-444.1592312272
 31
0.0
  0
LWPOLYLINE
  5
E2
330
1F
100
AcDbEntity
  8
0
  6
Continuous
 62
     7
370
    25
100
AcDbPolyline
 90
      124
 70
   128
 43
0.0
 10
383.6746744513
 20
-282.0365931859
 10
383.7899724237
 20
-276.75840066
 10
384.1355660448
 20
-271.3608583626
 10
384.7105491572
 20
-265.8580492208
 10
385.5134255479
 20
-260.2643283522
 10
386.5420984112
 20
-254.594290364
 10
387.7938914221
 20
-248.8627229664
 10
389.2655276632
 20
-243.0845841569
 10
390.9531770396
 20
-237.2749459506
 10
392.8524299374
 20
-231.4489685221
 10
394.9583341017
 20
-225.621848497
 10
397.2653946373
 20
-219.808785492
 10
399.7675950815
 20
-214.02495474
 10
402.4584079411
 20
-208.2854280031
 10
405.3308104975
 20
-202.6051979085
 10
408.3773111484
 20
-196.9990714869
 10
411.5899546762
 20
-191.4816853814
 10
414.9603696629
 20
-186.0674176388
 10
418.4797579541
 20
-180.7704120435
 10
422.1389420735
 20
-175.6044716566
 10
425.9283704915
 20
-170.5830801099
 10
429.8381571379
 20
-165.7193422932
 10
433.8581051096
 20
-161.0259402498
 10
437.9777251097
 20
-156.5151286154
 10
442.1862696918
 20
-152.198660096
 10
446.4727596019
 20
-148.0878067633
 10
450.82601012
 20
-144.1932900945
 10
455.2346666217
 20
-140.5252726108
 10
459.6872269687
 20
-137.0933267001
 10
464.1720731188
 20
-133.9063981183
 10
468.6775066872
 20
-130.9727976271
 10
473.1917726546
 20
-128.3001933917
 10
477.703093611
 20
-125.8955486261
 10
482.1997007074
 20
-123.7651402275
 10
486.6698619734
 20
-121.9145180939
 10
491.1019152445
 20
-120.348522618
 10
495.4842997716
 20
-119.0712299367
 10
499.8055792709
 20
-118.0859751277
 10
504.0544820946
 20
-117.3953290188
 10
508.2199236216
 20
-117.0010974298
 10
512.2910352332
 20
-116.9042983611
 10
516.2571959237
 20
-117.105198499
 10
520.1080586418
 20
-117.6032615068
 10
523.8335819007
 20
-118.3971906134
 10
527.4240350468
 20
-119.4849194887
 10
530.8700614798
 20
-120.8636061652
 10
534.1626681159
 20
-122.5296573724
 10
537.2932622663
 20
-124.4787194145
 10
540.2536779792
 20
-126.7057177169
 10
543.0361918444
 20
-129.2048355345
 10
545.6335440675
 20
-131.9695565402
 10
548.0389595424
 20
-134.9926587425
 10
550.2461636571
 20
-138.2662661992
 10
552.2493980985
 20
-141.7818338086
 10
554.0434313889
 20
-145.5301898977
 10
555.6235904966
 20
-149.5015575168
 10
556.9857450303
 20
-153.685575732
 10
558.1263493865
 20
-158.0713239635
 10
559.0424269439
 20
-162.6473630492
 10
559.7315806007
 20
-167.4017580595
 10
560.1920191156
 20
-172.3221003534
 10
560.4225413035
 20
-177.3955551057
 10
560.4225413035
 20
-182.6088879238
 10
560.1920191156
 20
-187.948497929
 10
559.7315806007
 20
-193.4004512166
 10
559.0424269439
 20
-198.9505261024
 10
558.1263493865
 20
-204.5842458226
 10
556.9857450303
 20
-210.2869078124
 10
555.6235904966
 20
-216.0436361762
 10
554.0434313889
 20
-221.8394166673
 10
552.2493980985
 20
-227.6591195036
 10
550.2461636571
 20
-233.4875723679
 10
548.0389595424
 20
-239.3095634516
 10
545.6335440675
 20
-245.1098992462
 10
543.0361918444
 20
-250.8734592965
 10
540.2536779792
 20
-256.5851992404
 10
537.2932622663
 20
-262.2302207701
 10
534.1626681159
 20
-267.7937898813
 10
530.8700614798
 20
-273.261403792
 10
527.4240350468
 20
-278.6187878991
 10
523.8335819007
 20
-283.8519657386
 10
520.1080586418
 20
-288.9472924421
 10
516.2571959237
 20
-293.891466906
 10
512.2910352332
 20
-298.6715987055
 10
508.2199236216
 20
-303.2752050526
 10
504.0544820946
 20
-307.6902898814
 10
499.8055792709
 20
-311.9053225526
 10
495.4842997716
 20
-315.9093108545
 10
491.1019152445
 20
-319.6918116475
 10
486.6698619734
 20
-323.2429559569
 10
482.1997007074
 20
-326.5534721631
 10
477.703093611
 20
-329.6147358102
 10
473.1917726546
 20
-332.4187513514
 10
468.6775066872
 20
-334.9582076601
 10
464.1720731188
 20
-337.2264700422
 10
459.6872269687
 20
-339.2176346065
 10
455.2346666217
 20
-340.9265054471
 10
450.82601012
 20
-342.3486144139
 10
446.4727596019
 20
-343.4802538086
 10
442.1862696918
 20
-344.318476382
 10
437.9777251097
 20
-344.8610900086
 10
433.8581051096
 20
-345.1066903832
 10
429.8381571379
 20
-345.0546214744
 10
425.9283704915
 20
-344.7050272334
 10
422.1389420735
 20
-344.0588166098
 10
418.4797579541
 20
-343.1176802796
 10
414.9603696629
 20
-341.8840739134
 10
411.5899546762
 20
-340.3612044839
 10
408.3773111484
 20
-338.5530576421
 10
405.3308104975
 20
-336.4643460017
 10
402.4584079411
 20
-334.1005213072
 10
399.7675950815
 20
-331.467740969
 10
397.2653946373
 20
-328.5728893562
 10
394.9583341017
 20
-325.4235017477
 10
392.8524299374
 20
-322.0278069164
 10
390.9531770396
 20
-318.3946602078
 10
389.2655276632
 20
-314.5335404963
 10
387.7938914221
 20
-310.454516724
 10
386.5420984112
 20
-306.1682387729
 10
385.5134255479
 20
-301.6858811921
 10
384.7105491572
 20
-297.0191416729
 10
384.1355660448
 20
-292.1801939021
 10
383.7899724237
 20
-287.1816655063
 10
383.6746744513
 20
-282.0365931859
  0
LWPOLYLINE
  5
E3
330
1F
100
AcDbEntity
  8
0
  6
Continuous
 62
     7
370
    25
100
AcDbPolyline
 90
      113
 70
   128
 43
0.0
 10
399.725996142
 20
-272.7703624111
 10
399.8397979013
 20
-268.0209823313
 10
400.1808396627
 20
-263.155156401
 10
400.7480466816
 20
-258.1881945384
 10
401.5396382537
 20
-253.1357229482
 10
402.5531224464
 20
-248.0136381129
 10
403.7853119044
 20
-242.8380569839
 10
405.2323238492
 20
-237.6252652701
 10
406.889616958
 20
-232.3916626881
 10
408.7519650215
 20
-227.1537142901
 10
410.8135148962
 20
-221.9279033204
 10
413.0677759673
 20
-216.7306734196
 10
415.5076570276
 20
-211.5783769164
 10
418.1254873506
 20
-206.4872170341
 10
420.9130219592
 20
-201.4732205151
 10
423.8614943089
 20
-196.5521615791
 10
426.9616268245
 20
-191.7395193379
 10
430.2036625107
 20
-187.0504473807
 10
433.5774044644
 20
-182.4996901261
 10
437.072236948
 20
-178.1015645733
 10
440.6771649024
 20
-173.869913157
 10
444.3808402887
 20
-169.818045955
 10
448.1716174058
 20
-165.9587209207
 10
452.0375647444
 20
-162.3040701201
 10
455.9665203043
 20
-158.8655982156
 10
459.9461205711
 20
-155.6541231525
 10
463.9638452966
 20
-152.6797503079
 10
468.0070527311
 20
-149.9518339002
 10
472.0630220996
 20
-147.4789585518
 10
476.1189914681
 20
-145.2689113461
 10
480.1621989025
 20
-143.3286398152
 10
484.179923628
 20
-141.6642464307
 10
488.1595238948
 20
-140.2809728277
 10
492.0884794548
 20
-139.1831692
 10
495.9544267933
 20
-138.3742922124
 10
499.7452039104
 20
-137.8568791487
 10
503.4488792967
 20
-137.6325737706
 10
507.0538072512
 20
-137.7020639648
 10
510.5486397348
 20
-138.0651418205
 10
513.9223816884
 20
-138.7206595279
 10
517.1644173746
 20
-139.6665567575
 10
520.2645498903
 20
-140.8998621844
 10
523.2130222399
 20
-142.4166874068
 10
526.0005568485
 20
-144.2122649726
 10
528.6183871716
 20
-146.2809422992
 10
531.0582682319
 20
-148.6162120924
 10
533.312529303
 20
-151.2107275608
 10
535.3740791776
 20
-154.0563237095
 10
537.2364272411
 20
-157.1440508021
 10
538.8937203499
 20
-160.46418349
 10
540.3407322948
 20
-164.0062907738
 10
541.5729217528
 20
-167.7592162367
 10
542.5864059455
 20
-171.7111571303
 10
543.3779975175
 20
-175.8496765455
 10
543.9452045364
 20
-180.1617551236
 10
544.2862462978
 20
-184.6338226176
 10
544.4000480572
 20
-189.2518099828
 10
544.2862462978
 20
-194.0011900626
 10
543.9452045364
 20
-198.867015993
 10
543.3779975175
 20
-203.8339778556
 10
542.5864059455
 20
-208.8864494457
 10
541.5729217528
 20
-214.0085342811
 10
540.3407322948
 20
-219.1841154101
 10
538.8937203499
 20
-224.3969071239
 10
537.2364272411
 20
-229.6305097059
 10
535.3740791776
 20
-234.8684581039
 10
533.312529303
 20
-240.0942690735
 10
531.0582682319
 20
-245.2914989743
 10
528.6183871716
 20
-250.4437954776
 10
526.0005568485
 20
-255.5349553598
 10
523.2130222399
 20
-260.5489518788
 10
520.2645498903
 20
-265.4700108149
 10
517.1644173746
 20
-270.282653056
 10
513.9223816884
 20
-274.9717250132
 10
510.5486397348
 20
-279.5224822678
 10
507.0538072512
 20
-283.9206078206
 10
503.4488792967
 20
-288.1522592369
 10
499.7452039104
 20
-292.204126439
 10
495.9544267933
 20
-296.0634514732
 10
492.0884794548
 20
-299.7181022738
 10
488.1595238948
 20
-303.1565741784
 10
484.179923628
 20
-306.3680492415
 10
480.1621989025
 20
-309.3424220861
 10
476.1189914681
 20
-312.0703384938
 10
472.0630220996
 20
-314.5432138421
 10
468.0070527311
 20
-316.7532610478
 10
463.9638452966
 20
-318.6935325788
 10
459.9461205711
 20
-320.3579259633
 10
455.9665203043
 20
-321.7411995663
 10
452.0375647444
 20
-322.8390031939
 10
448.1716174058
 20
-323.6478801816
 10
444.3808402887
 20
-324.1652932452
 10
440.6771649024
 20
-324.3895986233
 10
437.072236948
 20
-324.3201084291
 10
433.5774044644
 20
-323.9570305735
 10
430.2036625107
 20
-323.301512866
 10
426.9616268245
 20
-322.3556156364
 10
423.8614943089
 20
-321.1223102095
 10
420.9130219592
 20
-319.6054849872
 10
418.1254873506
 20
-317.8099074213
 10
415.5076570276
 20
-315.7412300947
 10
413.0677759673
 20
-313.4059603016
 10
410.8135148962
 20
-310.8114448332
 10
408.7519650215
 20
-307.9658486845
 10
406.889616958
 20
-304.8781215918
 10
405.2323238492
 20
-301.5579889039
 10
403.7853119044
 20
-298.0158816201
 10
402.5531224464
 20
-294.2629561572
 10
401.5396382537
 20
-290.3110152636
 10
400.7480466816
 20
-286.1724958485
 10
400.1808396627
 20
-281.8604172703
 10
399.8397979013
 20
-277.3883497764
 10
399.725996142
 20
-272.7703624111
  0
ARC
  5
E4
330
1F
100
AcDbEntity
  8
0
  6
Continuous
 62
     7
370
    25
100
AcDbCircle
 10
604.4023897061
 20
-211.8084316663
 30
0.0
 40
42.20526323242796
100
AcDbArc
 50
49.0386138994
 51
59.9664588616
  0
ARC
  5
E5
330
1F
100
AcDbEntity
  8
0
  6
Continuous
 62
     7
370
    25
100
AcDbCircle
 10
521.5991913011
 20
-355.2530012916
 30
0.0
 40
42.16650646876013
100
AcDbArc
 50
240.0323729397
 51
251.3931941111
  0
ARC
  5
E6
330
1F
100
AcDbEntity
  8
0
  6
Continuous
 62
     7
370
    25
100
AcDbCircle
 10
597.0221031853
 20
-219.2041598415
 30
0.0
 40
52.68757904182483
100
AcDbArc
 50
21.4823693491
 51
44.4696402075
  0
ARC
  5
E7
330
1F
100
AcDbEntity
  8
0
  6
Continuous
 62
     7
370
    25
100
AcDbCircle
 10
524.272031536
 20
-345.5479468632
 30
0.0
 40
52.27115401330165
100
AcDbArc
 50
255.9145393993
 51
277.8521941149
  0
ARC
  5
E8
330
1F
100
AcDbEntity
  8
0
  6
Continuous
 62
     7
370
    25
100
AcDbCircle
 10
636.9588956186
 20
-260.7116260157
 30
0.0
 40
44.14358476724451
100
AcDbArc
 50
24.6580289757
 51
35.1588962849
  0
ARC
  5
E9
330
1F
100
AcDbEntity
  8
0
  6
Continuous
 62
     7
370
    25
100
AcDbCircle
 10
580.2632607244
 20
-358.5161545582
 30
0.0
 40
44.58203763594408
100
AcDbArc
 50
264.8729464269
 51
276.981772886
  0
LWPOLYLINE
  5
EA
330
1F
100
AcDbEntity
  8
0
  6
Continuous
 62
     7
370
    25
100
AcDbPolyline
 90
       57
 70
   128
 43
0.0
 10
741.2620610877
 20
-270.9494577782
 10
743.3615905412
 20
-272.2678320337
 10
746.0062051865
 20
-274.2655211417
 10
748.4722647081
 20
-276.5348795097
 10
750.7517348629
 20
-279.0685055589
 10
752.837171464
 20
-281.858136922
 10
754.7217783318
 20
-284.8946717415
 10
756.3994020267
 20
-288.1682112548
 10
757.8645792632
 20
-291.6680719667
 10
759.1125263742
 20
-295.3828388803
 10
760.1391709204
 20
-299.3003959187
 10
760.9411622273
 20
-303.4079685119
 10
761.5158924586
 20
-307.6921540171
 10
761.8614808114
 20
-312.1389791325
 10
761.9768051256
 20
-316.7339383033
 10
761.8614808114
 20
-321.4620480932
 10
761.5158924586
 20
-326.3078810275
 10
760.9411622273
 20
-331.2556359334
 10
760.1391709204
 20
-336.2891679799
 10
759.1125263742
 20
-341.3920635806
 10
757.8645792632
 20
-346.5476795593
 10
756.3994020267
 20
-351.7391979005
 10
754.7217783318
 20
-356.9496805029
 10
752.837171464
 20
-362.1621360962
 10
750.7517348629
 20
-367.3595613076
 10
748.4722647081
 20
-372.5250075778
 10
746.0062051865
 20
-377.6416176639
 10
743.3615905412
 20
-382.6927138478
 10
740.5470556078
 20
-387.6618070623
 10
737.5717725941
 20
-392.5327003085
 10
734.4454510805
 20
-397.2895008231
 10
731.17828797
 20
-401.916691557
 10
727.780941147
 20
-406.3991828848
 10
724.2644899643
 20
-410.7223536656
 10
720.6404036331
 20
-414.8720999099
 10
716.9205043443
 20
-418.8348864875
 10
713.1169277561
 20
-422.5977881889
 10
709.2420768958
 20
-426.1485345883
 10
705.3085918667
 20
-429.4755396986
 10
701.3293044085
 20
-432.5679586219
 10
697.3171931165
 20
-435.4156890661
 10
693.2853435991
 20
-438.0094551821
 10
689.2469083074
 20
-440.3407942521
 10
685.2150587901
 20
-442.4021025028
 10
681.202947498
 20
-444.1866571554
 10
677.2236600398
 20
-445.688625737
 10
673.2901750107
 20
-446.9031257726
 10
669.4153241505
 20
-447.8261869488
 10
665.6117475623
 20
-448.4548013001
 10
661.8918482735
 20
-448.7869190218
 10
658.2677619422
 20
-448.8214537906
 10
654.7513107595
 20
-448.5582911257
 10
651.3539639365
 20
-447.9982929471
 10
648.0868008261
 20
-447.1432884472
 10
644.9604793124
 20
-445.9960619204
 10
641.9851962988
 20
-444.5603573217
 10
641.2701908189
 20
-444.1592312272
  0
LWPOLYLINE
  5
EB
330
1F
100
AcDbEntity
  8
0
  6
Continuous
 62
     1
370
    25
100
AcDbPolyline
 90
       59
 70
   128
 43
0.0
 10
632.0700606245
 20
-179.9370615911
 10
634.0046641915
 20
-181.7198168076
 10
636.6020164145
 20
-184.4845378133
 10
639.0074318894
 20
-187.5076400157
 10
641.2146360042
 20
-190.7812474723
 10
643.2178704455
 20
-194.2968150818
 10
645.011903736
 20
-198.0451711708
 10
646.5920628436
 20
-202.0165387899
 10
647.9542173773
 20
-206.2005570051
 10
649.0948217335
 20
-210.5863052366
 10
650.010899291
 20
-215.1623443223
 10
650.7000529477
 20
-219.9167393326
 10
651.1604914626
 20
-224.8370816265
 10
651.3910136505
 20
-229.9105363788
 10
651.3910136505
 20
-235.123869197
 10
651.1604914626
 20
-240.4634792022
 10
650.7000529477
 20
-245.9154324897
 10
650.010899291
 20
-251.4655073756
 10
649.0948217335
 20
-257.0992270957
 10
647.9542173773
 20
-262.8018890856
 10
646.5920628436
 20
-268.5586174494
 10
645.011903736
 20
-274.3543979405
 10
643.2178704455
 20
-280.1741007767
 10
641.2146360042
 20
-286.0025536411
 10
639.0074318894
 20
-291.8245447247
 10
636.6020164145
 20
-297.6248805193
 10
634.0046641915
 20
-303.3884405697
 10
631.2221503262
 20
-309.1001805135
 10
628.2617346134
 20
-314.7452020432
 10
625.131140463
 20
-320.3087711544
 10
621.8385338269
 20
-325.7763850652
 10
618.3925073939
 20
-331.1337691723
 10
614.8020542477
 20
-336.3669470117
 10
611.0765309888
 20
-341.4622737153
 10
607.2256682708
 20
-346.4064481791
 10
603.2595075803
 20
-351.1865799786
 10
599.1883959686
 20
-355.7901863257
 10
595.0229544417
 20
-360.2052711546
 10
590.774051618
 20
-364.4203038257
 10
586.4527721186
 20
-368.4242921276
 10
582.0703875915
 20
-372.2067929206
 10
577.6383343205
 20
-375.75793723
 10
573.1681730544
 20
-379.0684534362
 10
568.671565958
 20
-382.1297170833
 10
564.1602450016
 20
-384.9337326245
 10
559.6459790342
 20
-387.4731889332
 10
555.1405454658
 20
-389.7414513154
 10
550.6556993158
 20
-391.7326158796
 10
546.2031389688
 20
-393.4414867203
 10
541.794482467
 20
-394.863595687
 10
537.4412319489
 20
-395.9952350817
 10
533.1547420389
 20
-396.8334576551
 10
528.9461974568
 20
-397.3760712817
 10
524.8265774567
 20
-397.6216716564
 10
520.8066294849
 20
-397.5696027476
 10
516.8968428385
 20
-397.2200085066
 10
513.1074144205
 20
-396.5737978829
 10
509.4482303012
 20
-395.6326615528
 10
508.1450444769
 20
-395.215486212
  0
ARC
  5
EC
330
1F
100
AcDbEntity
  8
0
  6
Continuous
 62
     1
370
    25
100
AcDbCircle
 10
657.7629321623
 20
-338.2133605014
 30
0.0
 40
168.9412663173521
100
AcDbArc
 50
133.6629031847
 51
166.3424742401
  0
LWPOLYLINE
  5
ED
330
1F
100
AcDbEntity
  8
0
  6
Continuous
 62
     1
370
    25
100
AcDbPolyline
 90
       47
 70
   128
 43
0.0
 10
646.0494919748
 20
-199.9091829361
 10
646.9938500676
 20
-202.3726481172
 10
648.3547033173
 20
-206.5526600918
 10
649.4942171238
 20
-210.9342119868
 10
650.4094148658
 20
-215.5058737655
 10
651.097909978
 20
-220.2557181041
 10
651.557905951
 20
-225.1713530911
 10
651.788206868
 20
-230.2399532177
 10
651.788206868
 20
-235.448297019
 10
651.557905951
 20
-240.7827969245
 10
651.097909978
 20
-246.2295319572
 10
650.4094148658
 20
-251.774295832
 10
649.4942171238
 20
-257.4026224319
 10
648.3547033173
 20
-263.0998289633
 10
646.9938500676
 20
-268.851048656
 10
645.4152029781
 20
-274.6412809517
 10
643.6228819034
 20
-280.4554204022
 10
641.621570412
 20
-286.2782916493
 10
639.416478908
 20
-292.0947072173
 10
637.0133604363
 20
-297.8895009739
 10
634.4184948774
 20
-303.6475433388
 10
631.6386415319
 20
-309.3538173251
 10
628.6810601946
 20
-314.9934367923
 10
625.5534637388
 20
-320.5516799027
 10
622.2640075797
 20
-326.0140621244
 10
618.8212791376
 20
-331.3663179792
 10
615.2342609596
 20
-336.5944892533
 10
611.5123043777
 20
-341.6849402034
 10
607.6651268747
 20
-346.624383413
 10
603.7027620348
 20
-351.399939103
 10
599.6355463725
 20
-355.9991427355
 10
595.4740903569
 20
-360.4099982438
 10
591.229254704
 20
-364.6209978013
 10
586.91210823
 20
-368.6211583209
 10
582.5339186314
 20
-372.4000389437
 10
578.106106387
 20
-375.9477859028
 10
573.6402230261
 20
-379.2551329011
 10
569.1479188595
 20
-382.3134684094
 10
564.6409151563
 20
-385.1147969749
 10
560.1309690762
 20
-387.6518203027
 10
555.6298473279
 20
-389.9179220441
 10
551.1492915954
 20
-391.9071816711
 10
546.7009933484
 20
-393.61440727
 10
542.2965554828
 20
-395.0351576854
 10
537.9474696002
 20
-396.1657130508
 10
533.6650811053
 20
-397.003137523
 10
531.413214502
 20
-397.3289959809
  0
LWPOLYLINE
  5
EE
330
1F
100
AcDbEntity
  8
0
  6
Continuous
 62
     1
370
    25
100
AcDbPolyline
 90
       43
 70
   128
 43
0.0
 10
677.0772050096
 20
-242.2948584461
 10
678.514828744
 20
-245.7356346896
 10
679.7642667997
 20
-249.4548474092
 10
680.7921388728
 20
-253.3770920561
 10
681.5950942889
 20
-257.489575809
 10
682.1705094065
 20
-261.7788861379
 10
682.5165139594
 20
-266.2310288291
 10
682.6319752509
 20
-270.8314850188
 10
682.5165139594
 20
-275.5652499782
 10
682.1705094065
 20
-280.4168810227
 10
681.5950942889
 20
-285.3705515052
 10
680.7921388728
 20
-290.4101078482
 10
679.7642667997
 20
-295.5191083299
 10
678.514828744
 20
-300.6808915227
 10
677.0479024132
 20
-305.878615077
 10
675.3682714747
 20
-311.0953302449
 10
673.4814097504
 20
-316.3140244642
 10
671.3934759486
 20
-321.5176669858
 10
669.1112820537
 20
-326.689291001
 10
666.6422722527
 20
-331.8120210156
 10
663.9944965938
 20
-336.8691580201
 10
661.1765899125
 20
-341.8442007799
 10
658.1977507585
 20
-346.7209188382
 10
655.067688712
 20
-351.4834072641
 10
651.7966191155
 20
-356.1161322805
 10
648.3952051217
 20
-360.6039890528
 10
644.8745471567
 20
-364.9323260237
 10
641.2461276025
 20
-369.0870376841
 10
637.521779187
 20
-373.0545645699
 10
633.7136520563
 20
-376.8219731078
 10
629.8341663598
 20
-380.3769647366
 10
625.8959766887
 20
-383.7079511892
 10
621.9119286123
 20
-386.804061333
 10
617.8950178478
 20
-389.6552012424
 10
613.8583456444
 20
-392.2520738721
 10
609.8150795995
 20
-394.5862016765
 10
605.7784073961
 20
-396.6499715683
 10
601.7614966316
 20
-398.4366581086
 10
597.7774485552
 20
-399.9404319626
 10
593.8392588842
 20
-401.15638252
 10
589.9597731876
 20
-402.0805497348
 10
586.1516460569
 20
-402.7099111941
 10
585.6823672405
 20
-402.7676106284
  0
ARC
  5
EF
330
1F
100
AcDbEntity
  8
0
  6
Continuous
 62
     1
370
    25
100
AcDbCircle
 10
659.34061352
 20
-339.1241390515
 30
0.0
 40
169.1923756069614
100
AcDbArc
 50
134.6415882682
 51
165.3637876027
  0
LWPOLYLINE
  5
F0
330
1F
100
AcDbEntity
  8
0
  6
Continuous
 62
     1
370
    25
100
AcDbPolyline
 90
       50
 70
   128
 43
0.0
 10
671.5882365356
 20
-233.2321513203
 10
671.8040705468
 20
-233.4929890514
 10
673.8895071478
 20
-236.2826204145
 10
675.7741140157
 20
-239.3191552339
 10
677.4517377106
 20
-242.5926947472
 10
678.9169149471
 20
-246.0925554592
 10
680.1648620581
 20
-249.8073223728
 10
681.1915066043
 20
-253.7248794112
 10
681.9934979112
 20
-257.8324520043
 10
682.5682281425
 20
-262.1166375095
 10
682.9138164952
 20
-266.5634626249
 10
683.0291408095
 20
-271.1584217958
 10
682.9138164952
 20
-275.8865315856
 10
682.5682281425
 20
-280.73236452
 10
681.9934979112
 20
-285.6801194258
 10
681.1915066043
 20
-290.7136514723
 10
680.1648620581
 20
-295.8165470731
 10
678.9169149471
 20
-300.9721630517
 10
677.4517377106
 20
-306.163681393
 10
675.7741140157
 20
-311.3741639954
 10
673.8895071478
 20
-316.5866195887
 10
671.8040705468
 20
-321.7840448
 10
669.5246003919
 20
-326.9494910702
 10
667.0585408704
 20
-332.0661011564
 10
664.4139262251
 20
-337.1171973403
 10
661.5993912917
 20
-342.0862905548
 10
658.624108278
 20
-346.957183801
 10
655.4977867644
 20
-351.7139843155
 10
652.2306236539
 20
-356.3411750495
 10
648.8332768309
 20
-360.8236663773
 10
645.3168256482
 20
-365.1468371581
 10
641.692739317
 20
-369.2965834023
 10
637.9728400281
 20
-373.2593699799
 10
634.16926344
 20
-377.0222716813
 10
630.2944125797
 20
-380.5730180807
 10
626.3609275506
 20
-383.900023191
 10
622.3816400924
 20
-386.9924421144
 10
618.3695288003
 20
-389.8401725586
 10
614.337679283
 20
-392.4339386746
 10
610.2992439913
 20
-394.7652777445
 10
606.267394474
 20
-396.8265859952
 10
602.2552831819
 20
-398.6111406479
 10
598.2759957237
 20
-400.1131092295
 10
594.3425106946
 20
-401.3276092651
 10
590.4676598343
 20
-402.2506704413
 10
586.6640832462
 20
-402.8792847925
 10
582.9441839573
 20
-403.2114025142
 10
579.3200976261
 20
-403.2459372831
 10
575.8036464434
 20
-402.9827746181
 10
573.7652378228
 20
-402.6849123165
  0
ENDSEC
  0
SECTION
  2
OBJECTS
  0
DICTIONARY
  5
C
330
0
100
AcDbDictionary
281
     1
  3
ACAD_GROUP
350
D
  3
ACAD_LAYOUT
350
1A
  3
ACAD_MLINESTYLE
350
17
  3
ACAD_PLOTSETTINGS
350
19
  3
ACAD_PLOTSTYLENAME
350
E
  3
ACAD_SCALELIST
350
47
  0
DICTIONARY
  5
D
102
{ACAD_REACTORS
330
C
102
}
330
C
100
AcDbDictionary
281
     1
  0
DICTIONARY
  5
1A
102
{ACAD_REACTORS
330
C
102
}
330
C
100
AcDbDictionary
281
     1
  3
Layout1
350
1E
  3
Layout2
350
26
  3
Model
350
22
  0
DICTIONARY
  5
17
102
{ACAD_REACTORS
330
C
102
}
330
C
100
AcDbDictionary
281
     1
  3
Standard
350
18
  0
DICTIONARY
  5
19
102
{ACAD_REACTORS
330
C
102
}
330
C
100
AcDbDictionary
281
     1
  0
ACDBDICTIONARYWDFLT
  5
E
102
{ACAD_REACTORS
330
C
102
}
330
C
100
AcDbDictionary
281
     1
  3
Normal
350
F
100
AcDbDictionaryWithDefault
340
F
  0
DICTIONARY
  5
47
102
{ACAD_REACTORS
330
C
102
}
330
C
100
AcDbDictionary
281
     1
  3
A0
350
48
  3
A1
350
49
  3
A2
350
4A
  3
A3
350
4B
  3
A4
350
4C
  3
A5
350
4D
  3
A6
350
4E
  3
A7
350
4F
  3
A8
350
50
  3
A9
350
51
  3
B0
350
52
  3
B1
350
53
  3
B2
350
54
  3
B3
350
55
  3
B4
350
56
  3
B5
350
57
  3
B6
350
58
  3
B7
350
59
  3
B8
350
5A
  3
B9
350
5B
  3
C0
350
5C
  3
C1
350
5D
  3
C2
350
5E
  3
C3
350
5F
  3
C4
350
60
  3
C5
350
61
  3
C6
350
62
  3
C7
350
63
  3
C8
350
64
  3
C9
350
65
  3
D0
350
66
  3
D1
350
67
  3
D2
350
68
  0
LAYOUT
  5
1E
102
{ACAD_REACTORS
330
1A
102
}
330
1A
100
AcDbPlotSettings
  1

  2
none_device
  4

  6

 40
0.0
 41
0.0
 42
0.0
 43
0.0
 44
0.0
 45
0.0
 46
0.0
 47
0.0
 48
0.0
 49
0.0
140
0.0
141
0.0
142
1.0
143
1.0
 70
   688
 72
     1
 73
     0
 74
     5
  7

 75
    16
147
1.0
148
0.0
149
0.0
100
AcDbLayout
  1
Layout1
 70
     1
 71
     1
 10
0.0
 20
0.0
 11
420.0
 21
297.0
 12
0.0
 22
0.0
 32
0.0
 14
1.0000000000E+20
 24
1.0000000000E+20
 34
1.0000000000E+20
 15
-1.0000000000E+20
 25
-1.0000000000E+20
 35
-1.0000000000E+20
146
0.0
 13
0.0
 23
0.0
 33
0.0
 16
1.0
 26
0.0
 36
0.0
 17
0.0
 27
1.0
 37
0.0
 76
     0
330
1B
  0
LAYOUT
  5
26
102
{ACAD_REACTORS
330
1A
102
}
330
1A
100
AcDbPlotSettings
  1

  2
none_device
  4

  6

 40
0.0
 41
0.0
 42
0.0
 43
0.0
 44
0.0
 45
0.0
 46
0.0
 47
0.0
 48
0.0
 49
0.0
140
0.0
141
0.0
142
1.0
143
1.0
 70
   688
 72
     1
 73
     0
 74
     5
  7

 75
    16
147
1.0
148
0.0
149
0.0
100
AcDbLayout
  1
Layout2
 70
     1
 71
     2
 10
0.0
 20
0.0
 11
0.0
 21
0.0
 12
0.0
 22
0.0
 32
0.0
 14
0.0
 24
0.0
 34
0.0
 15
0.0
 25
0.0
 35
0.0
146
0.0
 13
0.0
 23
0.0
 33
0.0
 16
1.0
 26
0.0
 36
0.0
 17
0.0
 27
1.0
 37
0.0
 76
     0
330
23
  0
LAYOUT
  5
22
102
{ACAD_REACTORS
330
1A
102
}
330
1A
100
AcDbPlotSettings
  1

  2
none_device
  4
Letter_(8.50_x_11.00_Inches)
  6

 40
6.35
 41
6.35
 42
6.35000508
 43
6.35000508
 44
215.9
 45
279.4
 46
0.0
 47
0.0
 48
0.0
 49
0.0
140
0.0
141
0.0
142
1.0
143
1.0
 70
  1712
 72
     1
 73
     0
 74
     0
  7

 75
     0
147
1.0
148
0.0
149
0.0
100
AcDbLayout
  1
Model
 70
     1
 71
     0
 10
0.0
 20
0.0
 11
279.4
 21
215.9
 12
0.0
 22
0.0
 32
0.0
 14
0.0
 24
0.0
 34
0.0
 15
279.4
 25
215.9
 35
0.0
146
0.0
 13
0.0
 23
0.0
 33
0.0
 16
1.0
 26
0.0
 36
0.0
 17
0.0
 27
1.0
 37
0.0
 76
     0
330
1F
331
29
  0
MLINESTYLE
  5
18
102
{ACAD_REACTORS
330
17
102
}
330
17
100
AcDbMlineStyle
  2
Standard
 70
     0
  3

 62
   256
 51
90.0
 52
90.0
 71
     2
 49
0.5
 62
   256
  6
BYLAYER
 49
-0.5
 62
   256
  6
BYLAYER
  0
ACDBPLACEHOLDER
  5
F
102
{ACAD_REACTORS
330
E
102
}
330
E
  0
SCALE
  5
48
102
{ACAD_REACTORS
330
47
102
}
330
47
100
AcDbScale
 70
     0
300
1:1
140
1.0
141
1.0
290
     1
  0
SCALE
  5
49
102
{ACAD_REACTORS
330
47
102
}
330
47
100
AcDbScale
 70
     0
300
1:2
140
1.0
141
2.0
290
     0
  0
SCALE
  5
4A
102
{ACAD_REACTORS
330
47
102
}
330
47
100
AcDbScale
 70
     0
300
1:4
140
1.0
141
4.0
290
     0
  0
SCALE
  5
4B
102
{ACAD_REACTORS
330
47
102
}
330
47
100
AcDbScale
 70
     0
300
1:5
140
1.0
141
5.0
290
     0
  0
SCALE
  5
4C
102
{ACAD_REACTORS
330
47
102
}
330
47
100
AcDbScale
 70
     0
300
1:8
140
1.0
141
8.0
290
     0
  0
SCALE
  5
4D
102
{ACAD_REACTORS
330
47
102
}
330
47
100
AcDbScale
 70
     0
300
1:10
140
1.0
141
10.0
290
     0
  0
SCALE
  5
4E
102
{ACAD_REACTORS
330
47
102
}
330
47
100
AcDbScale
 70
     0
300
1:16
140
1.0
141
16.0
290
     0
  0
SCALE
  5
4F
102
{ACAD_REACTORS
330
47
102
}
330
47
100
AcDbScale
 70
     0
300
1:20
140
1.0
141
20.0
290
     0
  0
SCALE
  5
50
102
{ACAD_REACTORS
330
47
102
}
330
47
100
AcDbScale
 70
     0
300
1:30
140
1.0
141
30.0
290
     0
  0
SCALE
  5
51
102
{ACAD_REACTORS
330
47
102
}
330
47
100
AcDbScale
 70
     0
300
1:40
140
1.0
141
40.0
290
     0
  0
SCALE
  5
52
102
{ACAD_REACTORS
330
47
102
}
330
47
100
AcDbScale
 70
     0
300
1:50
140
1.0
141
50.0
290
     0
  0
SCALE
  5
53
102
{ACAD_REACTORS
330
47
102
}
330
47
100
AcDbScale
 70
     0
300
1:100
140
1.0
141
100.0
290
     0
  0
SCALE
  5
54
102
{ACAD_REACTORS
330
47
102
}
330
47
100
AcDbScale
 70
     0
300
2:1
140
2.0
141
1.0
290
     0
  0
SCALE
  5
55
102
{ACAD_REACTORS
330
47
102
}
330
47
100
AcDbScale
 70
     0
300
4:1
140
4.0
141
1.0
290
     0
  0
SCALE
  5
56
102
{ACAD_REACTORS
330
47
102
}
330
47
100
AcDbScale
 70
     0
300
8:1
140
8.0
141
1.0
290
     0
  0
SCALE
  5
57
102
{ACAD_REACTORS
330
47
102
}
330
47
100
AcDbScale
 70
     0
300
10:1
140
10.0
141
1.0
290
     0
  0
SCALE
  5
58
102
{ACAD_REACTORS
330
47
102
}
330
47
100
AcDbScale
 70
     0
300
100:1
140
100.0
141
1.0
290
     0
  0
SCALE
  5
59
102
{ACAD_REACTORS
330
47
102
}
330
47
100
AcDbScale
 70
     0
300
1/128" = 1'-0"
140
0.0078125
141
12.0
290
     0
  0
SCALE
  5
5A
102
{ACAD_REACTORS
330
47
102
}
330
47
100
AcDbScale
 70
     0
300
1/64" = 1'-0"
140
0.015625
141
12.0
290
     0
  0
SCALE
  5
5B
102
{ACAD_REACTORS
330
47
102
}
330
47
100
AcDbScale
 70
     0
300
1/32" = 1'-0"
140
0.03125
141
12.0
290
     0
  0
SCALE
  5
5C
102
{ACAD_REACTORS
330
47
102
}
330
47
100
AcDbScale
 70
     0
300
1/16" = 1'-0"
140
0.0625
141
12.0
290
     0
  0
SCALE
  5
5D
102
{ACAD_REACTORS
330
47
102
}
330
47
100
AcDbScale
 70
     0
300
3/32" = 1'-0"
140
0.09375
141
12.0
290
     0
  0
SCALE
  5
5E
102
{ACAD_REACTORS
330
47
102
}
330
47
100
AcDbScale
 70
     0
300
1/8" = 1'-0"
140
0.125
141
12.0
290
     0
  0
SCALE
  5
5F
102
{ACAD_REACTORS
330
47
102
}
330
47
100
AcDbScale
 70
     0
300
3/16" = 1'-0"
140
0.1875
141
12.0
290
     0
  0
SCALE
  5
60
102
{ACAD_REACTORS
330
47
102
}
330
47
100
AcDbScale
 70
     0
300
1/4" = 1'-0"
140
0.25
141
12.0
290
     0
  0
SCALE
  5
61
102
{ACAD_REACTORS
330
47
102
}
330
47
100
AcDbScale
 70
     0
300
3/8" = 1'-0"
140
0.375
141
12.0
290
     0
  0
SCALE
  5
62
102
{ACAD_REACTORS
330
47
102
}
330
47
100
AcDbScale
 70
     0
300
1/2" = 1'-0"
140
0.5
141
12.0
290
     0
  0
SCALE
  5
63
102
{ACAD_REACTORS
330
47
102
}
330
47
100
AcDbScale
 70
     0
300
3/4" = 1'-0"
140
0.75
141
12.0
290
     0
  0
SCALE
  5
64
102
{ACAD_REACTORS
330
47
102
}
330
47
100
AcDbScale
 70
     0
300
1" = 1'-0"
140
1.0
141
12.0
290
     0
  0
SCALE
  5
65
102
{ACAD_REACTORS
330
47
102
}
330
47
100
AcDbScale
 70
     0
300
1-1/2" = 1'-0"
140
1.5
141
12.0
290
     0
  0
SCALE
  5
66
102
{ACAD_REACTORS
330
47
102
}
330
47
100
AcDbScale
 70
     0
300
3" = 1'-0"
140
3.0
141
12.0
290
     0
  0
SCALE
  5
67
102
{ACAD_REACTORS
330
47
102
}
330
47
100
AcDbScale
 70
     0
300
6" = 1'-0"
140
6.0
141
12.0
290
     0
  0
SCALE
  5
68
102
{ACAD_REACTORS
330
47
102
}
330
47
100
AcDbScale
 70
     0
300
1'-0" = 1'-0"
140
12.0
141
12.0
290
     0
  0
ENDSEC
  0
EOF
